halo.bungie.org

They're Random, Baby!

Guitar Tab for Halo's Opening Theme

On March 15, 2004, XvShadow wrote:

Hi. I was bored one day so I made this tab. I'm not a proffesional tabber, but this sounds good to me.

Oh yeah. During the main verse, there's drums playing in the background. That might help you.

You can download this tab as a text file (1k, zipped), or simply read it here:


h=hammer on 
p=pull-off 
/=slide up(or fast pick) 
\=slide down 
^=bend full 
b=bend half(rarely used) 	 
^r or br=bend and release
(#)=Let ring

Halo Openning Theme
by XvShadow

Intro(Gregorian Chant)

E-(0)----2-3-2-5-3-2-(0)--------------
B-------------------------------------
G-------------------------------------
D-------------------------------------
A-------------------------------------
E-------------------------------------

E----------------------------
B-0-2-(3)----2----2-(0)------
G---------------2------------
D----------------------------
A----------------------------
E----------------------------

E-------------------------------
B--------0--3--5--(2)-----------
G-------------------------------
D--0--3-------------------------
A-------------------------------
E-------------------------------

E---------------------------
B-0--3--2--0--2-----(0)-----
G---------------------------
D----------------3----------
A---------------------------
E---------------------------

Verse after the solo of drums (The main verse)

E---(0)---------(2)---------(3)---------------
B---------------------------------------------
G---------------------------------------------
D---------------------------------------------
A---------------------------------------------
E-000---------000---------000-----------------

E----5----5-532------(0)--------(2)--------(3)
B---------------------------------------------
G---------------------------------------------
D---------------------------------------------
A---------------------------------------------
E-000----0-0------000---------000--------000--

E----5----5-532------(0)--------(2)--------(3)
B---------------------------------------------
G---------------------------------------------
D---------------------------------------------
A---------------------------------------------
E-000----0-0------000---------000--------000--

E----5----5-532------0-----3-----5---5-532-
B------------------------------------------
G------------------------------------------
D------------------------------------------
A------------------------------------------
E-000----0-0------000---000---000---0-0----

E-----0------3------5----5-532----------------
B---------------------------------------------
G---------------------------------------------
D---------------------------------------------
A---------------------------------------------
E--000----000----000----0-0-------------------

E-----0------3------5----5-532----------------
B---------------------------------------------
G---------------------------------------------
D---------------------------------------------
A---------------------------------------------
E--000----000----000----0-0-------------------

E---(0)---------(2)---------(3)---------------
B---------------------------------------------
G---------------------------------------------
D---------------------------------------------
A---------------------------------------------
E-000---------000---------000-----------------

E----5----5-532------0----2----3----5--
B--------------------------------------
G--------------------------------------
D--------------------------------------
A--------------------------------------
E-000----0-0------000--000--000--000---

E----0----2----3----5---------
B----0----2----3----5---------
G-----------------------------
D-----------------------------
A-----------------------------
E-000--000--000--000----------

Violins start playing

Violins stop playing

E-----0------3------5----5-532----------------
B---------------------------------------------
G---------------------------------------------
D---------------------------------------------
A---------------------------------------------
E--000----000----000----0-0-------------------

E-----0------3------5----5-532----------------
B---------------------------------------------
G---------------------------------------------
D---------------------------------------------
A---------------------------------------------
E--000----000----000----0-0-------------------

E---(0)---------(2)---------(3)---------------
B---------------------------------------------
G---------------------------------------------
D---------------------------------------------
A---------------------------------------------
E-000---------000---------000-----------------

E----5----5-532---
B-----------------
G-----------------
D-----------------
A-----------------
E-000----0-0------

Violins play again

Violins stop

E---(0)---------(2)---------(3)---------------
B---------------------------------------------
G---------------------------------------------
D---------------------------------------------
A---------------------------------------------
E-000---------000---------000-----------------

E----5----5-532------(0)--------(2)--------(3)
B---------------------------------------------
G---------------------------------------------
D---------------------------------------------
A---------------------------------------------
E-000----0-0------000---------000--------000--

E----5----5-53(2)----
B------------------
G------------------
D------------------
A------------------
E-000----0-0-------

Ending Gregorian Chant

E-(0)----2-3-2-5-3-2-(0)--------------
B-------------------------------------
G-------------------------------------
D-------------------------------------
A-------------------------------------
E-------------------------------------

E----------------------------
B-0-2-(3)----2----2-(0)------
G---------------2------------
D----------------------------
A----------------------------
E----------------------------

E-------------------------------
B--------0--3--5--(2)-----------
G-------------------------------
D--0--3-------------------------
A-------------------------------
E-------------------------------

E---------------------------
B-0--3--2--0--2-----(0)-----
G---------------------------
D----------------3----------
A---------------------------
E---------------------------



bungie.org
brr!